ISO-10303-21;
HEADER;
/* Generated by software containing ST-Developer
 * from STEP Tools, Inc. (www.steptools.com) 
 */
/* OPTION: strings as raw bytes, not using required /X/ escapes */

FILE_DESCRIPTION(
/* description */ ('Unknown'),
/* implementation_level */ '2;1');

FILE_NAME(
/* name */ 'A000013',
/* time_stamp */ '2020-06-21T11:22:54+02:00',
/* author */ ('Unknown'),
/* organization */ ('Unknown'),
/* preprocessor_version */ 'ST-DEVELOPER v16.7',
/* originating_system */ 'DEX',
/* authorisation */ $);

FILE_SCHEMA (('CONFIG_CONTROL_DESIGN'));
ENDSEC;

DATA;
#10=PROPERTY_DEFINITION_REPRESENTATION(#14,#12);
#11=PROPERTY_DEFINITION_REPRESENTATION(#15,#13);
#12=REPRESENTATION('',(#16),#605);
#13=REPRESENTATION('',(#17),#605);
#14=PROPERTY_DEFINITION('pmi validation property','',#610);
#15=PROPERTY_DEFINITION('pmi validation property','',#610);
#16=VALUE_REPRESENTATION_ITEM('number of annotations',COUNT_MEASURE(0.));
#17=VALUE_REPRESENTATION_ITEM('number of views',COUNT_MEASURE(0.));
#18=SHAPE_REPRESENTATION_RELATIONSHIP('','',#359,#19);
#19=ADVANCED_BREP_SHAPE_REPRESENTATION('',(#357),#605);
#20=PLANE('',#370);
#21=PLANE('',#371);
#22=PLANE('',#379);
#23=PLANE('',#389);
#24=PLANE('',#390);
#25=PLANE('',#393);
#26=PLANE('',#394);
#27=PLANE('',#396);
#28=LINE('',#510,#56);
#29=LINE('',#514,#57);
#30=LINE('',#519,#58);
#31=LINE('',#523,#59);
#32=LINE('',#528,#60);
#33=LINE('',#532,#61);
#34=LINE('',#534,#62);
#35=LINE('',#537,#63);
#36=LINE('',#539,#64);
#37=LINE('',#541,#65);
#38=LINE('',#543,#66);
#39=LINE('',#549,#67);
#40=LINE('',#553,#68);
#41=LINE('',#556,#69);
#42=LINE('',#561,#70);
#43=LINE('',#564,#71);
#44=LINE('',#570,#72);
#45=LINE('',#574,#73);
#46=LINE('',#579,#74);
#47=LINE('',#581,#75);
#48=LINE('',#585,#76);
#49=LINE('',#587,#77);
#50=LINE('',#589,#78);
#51=LINE('',#590,#79);
#52=LINE('',#592,#80);
#53=LINE('',#593,#81);
#54=LINE('',#599,#82);
#55=LINE('',#601,#83);
#56=VECTOR('',#405,1000.);
#57=VECTOR('',#408,1000.);
#58=VECTOR('',#413,1000.);
#59=VECTOR('',#416,1000.);
#60=VECTOR('',#421,1000.);
#61=VECTOR('',#424,1000.);
#62=VECTOR('',#427,1000.);
#63=VECTOR('',#428,1000.);
#64=VECTOR('',#429,1000.);
#65=VECTOR('',#430,1000.);
#66=VECTOR('',#433,1000.);
#67=VECTOR('',#438,1000.);
#68=VECTOR('',#441,1000.);
#69=VECTOR('',#444,1000.);
#70=VECTOR('',#449,1000.);
#71=VECTOR('',#454,1000.);
#72=VECTOR('',#459,1000.);
#73=VECTOR('',#462,1000.);
#74=VECTOR('',#467,1000.);
#75=VECTOR('',#470,1000.);
#76=VECTOR('',#475,1000.);
#77=VECTOR('',#478,1000.);
#78=VECTOR('',#481,1000.);
#79=VECTOR('',#482,1000.);
#80=VECTOR('',#485,1000.);
#81=VECTOR('',#486,1000.);
#82=VECTOR('',#497,1000.);
#83=VECTOR('',#500,1000.);
#84=ORIENTED_EDGE('',*,*,#180,.T.);
#85=ORIENTED_EDGE('',*,*,#181,.F.);
#86=ORIENTED_EDGE('',*,*,#182,.F.);
#87=ORIENTED_EDGE('',*,*,#183,.T.);
#88=ORIENTED_EDGE('',*,*,#184,.F.);
#89=ORIENTED_EDGE('',*,*,#185,.T.);
#90=ORIENTED_EDGE('',*,*,#186,.F.);
#91=ORIENTED_EDGE('',*,*,#187,.T.);
#92=ORIENTED_EDGE('',*,*,#188,.T.);
#93=ORIENTED_EDGE('',*,*,#189,.F.);
#94=ORIENTED_EDGE('',*,*,#190,.F.);
#95=ORIENTED_EDGE('',*,*,#191,.T.);
#96=ORIENTED_EDGE('',*,*,#192,.F.);
#97=ORIENTED_EDGE('',*,*,#193,.T.);
#98=ORIENTED_EDGE('',*,*,#194,.T.);
#99=ORIENTED_EDGE('',*,*,#195,.F.);
#100=ORIENTED_EDGE('',*,*,#196,.T.);
#101=ORIENTED_EDGE('',*,*,#197,.T.);
#102=ORIENTED_EDGE('',*,*,#184,.T.);
#103=ORIENTED_EDGE('',*,*,#198,.T.);
#104=ORIENTED_EDGE('',*,*,#199,.T.);
#105=ORIENTED_EDGE('',*,*,#200,.T.);
#106=ORIENTED_EDGE('',*,*,#201,.T.);
#107=ORIENTED_EDGE('',*,*,#202,.T.);
#108=ORIENTED_EDGE('',*,*,#180,.F.);
#109=ORIENTED_EDGE('',*,*,#203,.F.);
#110=ORIENTED_EDGE('',*,*,#204,.F.);
#111=ORIENTED_EDGE('',*,*,#194,.F.);
#112=ORIENTED_EDGE('',*,*,#205,.F.);
#113=ORIENTED_EDGE('',*,*,#206,.F.);
#114=ORIENTED_EDGE('',*,*,#188,.F.);
#115=ORIENTED_EDGE('',*,*,#207,.F.);
#116=ORIENTED_EDGE('',*,*,#208,.T.);
#117=ORIENTED_EDGE('',*,*,#209,.T.);
#118=ORIENTED_EDGE('',*,*,#186,.T.);
#119=ORIENTED_EDGE('',*,*,#210,.T.);
#120=ORIENTED_EDGE('',*,*,#211,.T.);
#121=ORIENTED_EDGE('',*,*,#212,.T.);
#122=ORIENTED_EDGE('',*,*,#213,.T.);
#123=ORIENTED_EDGE('',*,*,#214,.T.);
#124=ORIENTED_EDGE('',*,*,#192,.T.);
#125=ORIENTED_EDGE('',*,*,#215,.T.);
#126=ORIENTED_EDGE('',*,*,#216,.T.);
#127=ORIENTED_EDGE('',*,*,#182,.T.);
#128=ORIENTED_EDGE('',*,*,#217,.T.);
#129=ORIENTED_EDGE('',*,*,#190,.T.);
#130=ORIENTED_EDGE('',*,*,#218,.T.);
#131=ORIENTED_EDGE('',*,*,#219,.T.);
#132=ORIENTED_EDGE('',*,*,#215,.F.);
#133=ORIENTED_EDGE('',*,*,#195,.T.);
#134=ORIENTED_EDGE('',*,*,#204,.T.);
#135=ORIENTED_EDGE('',*,*,#220,.F.);
#136=ORIENTED_EDGE('',*,*,#219,.F.);
#137=ORIENTED_EDGE('',*,*,#221,.T.);
#138=ORIENTED_EDGE('',*,*,#205,.T.);
#139=ORIENTED_EDGE('',*,*,#193,.F.);
#140=ORIENTED_EDGE('',*,*,#211,.F.);
#141=ORIENTED_EDGE('',*,*,#222,.T.);
#142=ORIENTED_EDGE('',*,*,#196,.F.);
#143=ORIENTED_EDGE('',*,*,#223,.F.);
#144=ORIENTED_EDGE('',*,*,#201,.F.);
#145=ORIENTED_EDGE('',*,*,#224,.F.);
#146=ORIENTED_EDGE('',*,*,#213,.F.);
#147=ORIENTED_EDGE('',*,*,#225,.T.);
#148=ORIENTED_EDGE('',*,*,#202,.F.);
#149=ORIENTED_EDGE('',*,*,#225,.F.);
#150=ORIENTED_EDGE('',*,*,#212,.F.);
#151=ORIENTED_EDGE('',*,*,#223,.T.);
#152=ORIENTED_EDGE('',*,*,#207,.T.);
#153=ORIENTED_EDGE('',*,*,#191,.F.);
#154=ORIENTED_EDGE('',*,*,#217,.F.);
#155=ORIENTED_EDGE('',*,*,#181,.T.);
#156=ORIENTED_EDGE('',*,*,#216,.F.);
#157=ORIENTED_EDGE('',*,*,#220,.T.);
#158=ORIENTED_EDGE('',*,*,#203,.T.);
#159=ORIENTED_EDGE('',*,*,#183,.F.);
#160=ORIENTED_EDGE('',*,*,#206,.T.);
#161=ORIENTED_EDGE('',*,*,#221,.F.);
#162=ORIENTED_EDGE('',*,*,#218,.F.);
#163=ORIENTED_EDGE('',*,*,#189,.T.);
#164=ORIENTED_EDGE('',*,*,#200,.F.);
#165=ORIENTED_EDGE('',*,*,#226,.F.);
#166=ORIENTED_EDGE('',*,*,#214,.F.);
#167=ORIENTED_EDGE('',*,*,#224,.T.);
#168=ORIENTED_EDGE('',*,*,#199,.F.);
#169=ORIENTED_EDGE('',*,*,#227,.T.);
#170=ORIENTED_EDGE('',*,*,#208,.F.);
#171=ORIENTED_EDGE('',*,*,#226,.T.);
#172=ORIENTED_EDGE('',*,*,#209,.F.);
#173=ORIENTED_EDGE('',*,*,#227,.F.);
#174=ORIENTED_EDGE('',*,*,#198,.F.);
#175=ORIENTED_EDGE('',*,*,#187,.F.);
#176=ORIENTED_EDGE('',*,*,#210,.F.);
#177=ORIENTED_EDGE('',*,*,#185,.F.);
#178=ORIENTED_EDGE('',*,*,#197,.F.);
#179=ORIENTED_EDGE('',*,*,#222,.F.);
#180=EDGE_CURVE('',#228,#229,#260,.F.);
#181=EDGE_CURVE('',#230,#229,#28,.F.);
#182=EDGE_CURVE('',#231,#230,#261,.F.);
#183=EDGE_CURVE('',#231,#228,#29,.T.);
#184=EDGE_CURVE('',#232,#233,#262,.T.);
#185=EDGE_CURVE('',#232,#234,#30,.T.);
#186=EDGE_CURVE('',#235,#234,#263,.T.);
#187=EDGE_CURVE('',#235,#233,#31,.F.);
#188=EDGE_CURVE('',#236,#237,#264,.F.);
#189=EDGE_CURVE('',#238,#237,#32,.F.);
#190=EDGE_CURVE('',#239,#238,#265,.F.);
#191=EDGE_CURVE('',#239,#236,#33,.F.);
#192=EDGE_CURVE('',#240,#241,#34,.T.);
#193=EDGE_CURVE('',#240,#242,#35,.F.);
#194=EDGE_CURVE('',#242,#243,#36,.T.);
#195=EDGE_CURVE('',#241,#243,#37,.T.);
#196=EDGE_CURVE('',#244,#245,#38,.T.);
#197=EDGE_CURVE('',#245,#232,#266,.F.);
#198=EDGE_CURVE('',#233,#246,#267,.F.);
#199=EDGE_CURVE('',#246,#247,#39,.T.);
#200=EDGE_CURVE('',#247,#248,#268,.T.);
#201=EDGE_CURVE('',#248,#249,#40,.T.);
#202=EDGE_CURVE('',#249,#244,#269,.T.);
#203=EDGE_CURVE('',#250,#228,#41,.T.);
#204=EDGE_CURVE('',#243,#250,#270,.T.);
#205=EDGE_CURVE('',#251,#242,#271,.T.);
#206=EDGE_CURVE('',#237,#251,#42,.T.);
#207=EDGE_CURVE('',#229,#236,#272,.T.);
#208=EDGE_CURVE('',#252,#253,#43,.T.);
#209=EDGE_CURVE('',#253,#235,#273,.T.);
#210=EDGE_CURVE('',#234,#254,#274,.T.);
#211=EDGE_CURVE('',#254,#255,#44,.T.);
#212=EDGE_CURVE('',#255,#256,#275,.F.);
#213=EDGE_CURVE('',#256,#257,#45,.T.);
#214=EDGE_CURVE('',#257,#252,#276,.F.);
#215=EDGE_CURVE('',#241,#258,#277,.T.);
#216=EDGE_CURVE('',#258,#231,#46,.T.);
#217=EDGE_CURVE('',#230,#239,#278,.T.);
#218=EDGE_CURVE('',#238,#259,#47,.T.);
#219=EDGE_CURVE('',#259,#240,#279,.T.);
#220=EDGE_CURVE('',#258,#250,#48,.F.);
#221=EDGE_CURVE('',#259,#251,#49,.T.);
#222=EDGE_CURVE('',#254,#245,#50,.T.);
#223=EDGE_CURVE('',#255,#244,#51,.F.);
#224=EDGE_CURVE('',#257,#248,#52,.F.);
#225=EDGE_CURVE('',#256,#249,#53,.T.);
#226=EDGE_CURVE('',#252,#247,#54,.T.);
#227=EDGE_CURVE('',#246,#253,#55,.F.);
#228=VERTEX_POINT('',#508);
#229=VERTEX_POINT('',#509);
#230=VERTEX_POINT('',#511);
#231=VERTEX_POINT('',#513);
#232=VERTEX_POINT('',#517);
#233=VERTEX_POINT('',#518);
#234=VERTEX_POINT('',#520);
#235=VERTEX_POINT('',#522);
#236=VERTEX_POINT('',#526);
#237=VERTEX_POINT('',#527);
#238=VERTEX_POINT('',#529);
#239=VERTEX_POINT('',#531);
#240=VERTEX_POINT('',#535);
#241=VERTEX_POINT('',#536);
#242=VERTEX_POINT('',#538);
#243=VERTEX_POINT('',#540);
#244=VERTEX_POINT('',#544);
#245=VERTEX_POINT('',#545);
#246=VERTEX_POINT('',#548);
#247=VERTEX_POINT('',#550);
#248=VERTEX_POINT('',#552);
#249=VERTEX_POINT('',#554);
#250=VERTEX_POINT('',#557);
#251=VERTEX_POINT('',#560);
#252=VERTEX_POINT('',#565);
#253=VERTEX_POINT('',#566);
#254=VERTEX_POINT('',#569);
#255=VERTEX_POINT('',#571);
#256=VERTEX_POINT('',#573);
#257=VERTEX_POINT('',#575);
#258=VERTEX_POINT('',#578);
#259=VERTEX_POINT('',#582);
#260=CIRCLE('',#362,2.);
#261=CIRCLE('',#363,2.);
#262=CIRCLE('',#365,28.65);
#263=CIRCLE('',#366,28.65);
#264=CIRCLE('',#368,2.);
#265=CIRCLE('',#369,2.);
#266=CIRCLE('',#372,0.5);
#267=CIRCLE('',#373,0.5);
#268=CIRCLE('',#374,3.5);
#269=CIRCLE('',#375,3.5);
#270=CIRCLE('',#376,2.);
#271=CIRCLE('',#377,2.);
#272=CIRCLE('',#378,30.15);
#273=CIRCLE('',#380,0.5);
#274=CIRCLE('',#381,0.5);
#275=CIRCLE('',#382,3.5);
#276=CIRCLE('',#383,3.5);
#277=CIRCLE('',#384,2.);
#278=CIRCLE('',#385,30.15);
#279=CIRCLE('',#386,2.);
#280=EDGE_LOOP('',(#84,#85,#86,#87));
#281=EDGE_LOOP('',(#88,#89,#90,#91));
#282=EDGE_LOOP('',(#92,#93,#94,#95));
#283=EDGE_LOOP('',(#96,#97,#98,#99));
#284=EDGE_LOOP('',(#100,#101,#102,#103,#104,#105,#106,#107));
#285=EDGE_LOOP('',(#108,#109,#110,#111,#112,#113,#114,#115));
#286=EDGE_LOOP('',(#116,#117,#118,#119,#120,#121,#122,#123));
#287=EDGE_LOOP('',(#124,#125,#126,#127,#128,#129,#130,#131));
#288=EDGE_LOOP('',(#132,#133,#134,#135));
#289=EDGE_LOOP('',(#136,#137,#138,#139));
#290=EDGE_LOOP('',(#140,#141,#142,#143));
#291=EDGE_LOOP('',(#144,#145,#146,#147));
#292=EDGE_LOOP('',(#148,#149,#150,#151));
#293=EDGE_LOOP('',(#152,#153,#154,#155));
#294=EDGE_LOOP('',(#156,#157,#158,#159));
#295=EDGE_LOOP('',(#160,#161,#162,#163));
#296=EDGE_LOOP('',(#164,#165,#166,#167));
#297=EDGE_LOOP('',(#168,#169,#170,#171));
#298=EDGE_LOOP('',(#172,#173,#174,#175));
#299=EDGE_LOOP('',(#176,#177,#178,#179));
#300=FACE_BOUND('',#280,.T.);
#301=FACE_BOUND('',#281,.T.);
#302=FACE_BOUND('',#282,.T.);
#303=FACE_BOUND('',#283,.T.);
#304=FACE_BOUND('',#284,.T.);
#305=FACE_BOUND('',#285,.T.);
#306=FACE_BOUND('',#286,.T.);
#307=FACE_BOUND('',#287,.T.);
#308=FACE_BOUND('',#288,.T.);
#309=FACE_BOUND('',#289,.T.);
#310=FACE_BOUND('',#290,.T.);
#311=FACE_BOUND('',#291,.T.);
#312=FACE_BOUND('',#292,.T.);
#313=FACE_BOUND('',#293,.T.);
#314=FACE_BOUND('',#294,.T.);
#315=FACE_BOUND('',#295,.T.);
#316=FACE_BOUND('',#296,.T.);
#317=FACE_BOUND('',#297,.T.);
#318=FACE_BOUND('',#298,.T.);
#319=FACE_BOUND('',#299,.T.);
#320=CYLINDRICAL_SURFACE('',#361,2.);
#321=CYLINDRICAL_SURFACE('',#364,28.65);
#322=CYLINDRICAL_SURFACE('',#367,2.);
#323=CYLINDRICAL_SURFACE('',#387,2.);
#324=CYLINDRICAL_SURFACE('',#388,2.);
#325=CYLINDRICAL_SURFACE('',#391,3.5);
#326=CYLINDRICAL_SURFACE('',#392,30.15);
#327=CYLINDRICAL_SURFACE('',#395,3.5);
#328=CYLINDRICAL_SURFACE('',#397,0.5);
#329=CYLINDRICAL_SURFACE('',#398,0.5);
#330=ADVANCED_FACE('',(#300),#320,.T.);
#331=ADVANCED_FACE('',(#301),#321,.F.);
#332=ADVANCED_FACE('',(#302),#322,.T.);
#333=ADVANCED_FACE('',(#303),#20,.T.);
#334=ADVANCED_FACE('',(#304,#305),#21,.T.);
#335=ADVANCED_FACE('',(#306,#307),#22,.F.);
#336=ADVANCED_FACE('',(#308),#323,.F.);
#337=ADVANCED_FACE('',(#309),#324,.F.);
#338=ADVANCED_FACE('',(#310),#23,.F.);
#339=ADVANCED_FACE('',(#311),#24,.F.);
#340=ADVANCED_FACE('',(#312),#325,.T.);
#341=ADVANCED_FACE('',(#313),#326,.T.);
#342=ADVANCED_FACE('',(#314),#25,.T.);
#343=ADVANCED_FACE('',(#315),#26,.T.);
#344=ADVANCED_FACE('',(#316),#327,.T.);
#345=ADVANCED_FACE('',(#317),#27,.F.);
#346=ADVANCED_FACE('',(#318),#328,.F.);
#347=ADVANCED_FACE('',(#319),#329,.F.);
#348=CLOSED_SHELL('',(#330,#331,#332,#333,#334,#335,#336,#337,#338,#339,
#340,#341,#342,#343,#344,#345,#346,#347));
#349=STYLED_ITEM('',(#350),#357);
#350=PRESENTATION_STYLE_ASSIGNMENT((#351));
#351=SURFACE_STYLE_USAGE(.BOTH.,#352);
#352=SURFACE_SIDE_STYLE('',(#353));
#353=SURFACE_STYLE_FILL_AREA(#354);
#354=FILL_AREA_STYLE('',(#355));
#355=FILL_AREA_STYLE_COLOUR('',#356);
#356=COLOUR_RGB('',0.331739127635956,0.340869575738907,0.349999994039536);
#357=MANIFOLD_SOLID_BREP('60-44-000',#348);
#358=SHAPE_DEFINITION_REPRESENTATION(#610,#359);
#359=SHAPE_REPRESENTATION('A000013',(#360),#605);
#360=AXIS2_PLACEMENT_3D('',#505,#399,#400);
#361=AXIS2_PLACEMENT_3D('',#506,#401,#402);
#362=AXIS2_PLACEMENT_3D('',#507,#403,#404);
#363=AXIS2_PLACEMENT_3D('',#512,#406,#407);
#364=AXIS2_PLACEMENT_3D('',#515,#409,#410);
#365=AXIS2_PLACEMENT_3D('',#516,#411,#412);
#366=AXIS2_PLACEMENT_3D('',#521,#414,#415);
#367=AXIS2_PLACEMENT_3D('',#524,#417,#418);
#368=AXIS2_PLACEMENT_3D('',#525,#419,#420);
#369=AXIS2_PLACEMENT_3D('',#530,#422,#423);
#370=AXIS2_PLACEMENT_3D('',#533,#425,#426);
#371=AXIS2_PLACEMENT_3D('',#542,#431,#432);
#372=AXIS2_PLACEMENT_3D('',#546,#434,#435);
#373=AXIS2_PLACEMENT_3D('',#547,#436,#437);
#374=AXIS2_PLACEMENT_3D('',#551,#439,#440);
#375=AXIS2_PLACEMENT_3D('',#555,#442,#443);
#376=AXIS2_PLACEMENT_3D('',#558,#445,#446);
#377=AXIS2_PLACEMENT_3D('',#559,#447,#448);
#378=AXIS2_PLACEMENT_3D('',#562,#450,#451);
#379=AXIS2_PLACEMENT_3D('',#563,#452,#453);
#380=AXIS2_PLACEMENT_3D('',#567,#455,#456);
#381=AXIS2_PLACEMENT_3D('',#568,#457,#458);
#382=AXIS2_PLACEMENT_3D('',#572,#460,#461);
#383=AXIS2_PLACEMENT_3D('',#576,#463,#464);
#384=AXIS2_PLACEMENT_3D('',#577,#465,#466);
#385=AXIS2_PLACEMENT_3D('',#580,#468,#469);
#386=AXIS2_PLACEMENT_3D('',#583,#471,#472);
#387=AXIS2_PLACEMENT_3D('',#584,#473,#474);
#388=AXIS2_PLACEMENT_3D('',#586,#476,#477);
#389=AXIS2_PLACEMENT_3D('',#588,#479,#480);
#390=AXIS2_PLACEMENT_3D('',#591,#483,#484);
#391=AXIS2_PLACEMENT_3D('',#594,#487,#488);
#392=AXIS2_PLACEMENT_3D('',#595,#489,#490);
#393=AXIS2_PLACEMENT_3D('',#596,#491,#492);
#394=AXIS2_PLACEMENT_3D('',#597,#493,#494);
#395=AXIS2_PLACEMENT_3D('',#598,#495,#496);
#396=AXIS2_PLACEMENT_3D('',#600,#498,#499);
#397=AXIS2_PLACEMENT_3D('',#602,#501,#502);
#398=AXIS2_PLACEMENT_3D('',#603,#503,#504);
#399=DIRECTION('',(0.,0.,1.));
#400=DIRECTION('',(1.,0.,0.));
#401=DIRECTION('',(0.,0.,-1.));
#402=DIRECTION('',(-1.,0.,0.));
#403=DIRECTION('',(0.,0.,1.));
#404=DIRECTION('',(1.,0.,0.));
#405=DIRECTION('',(0.,0.,-1.));
#406=DIRECTION('',(0.,0.,1.));
#407=DIRECTION('',(1.,0.,0.));
#408=DIRECTION('',(0.,0.,1.));
#409=DIRECTION('',(0.,0.,-1.));
#410=DIRECTION('',(-0.663176265270506,0.748463253060472,0.));
#411=DIRECTION('',(0.,0.,-1.));
#412=DIRECTION('',(-0.663176265270528,0.748463253060452,0.));
#413=DIRECTION('',(0.,0.,-1.));
#414=DIRECTION('',(0.,0.,1.));
#415=DIRECTION('',(-0.663176265270528,0.748463253060452,0.));
#416=DIRECTION('',(0.,0.,-1.));
#417=DIRECTION('',(0.,0.,-1.));
#418=DIRECTION('',(-1.,0.,0.));
#419=DIRECTION('',(0.,0.,1.));
#420=DIRECTION('',(1.,0.,0.));
#421=DIRECTION('',(0.,0.,-1.));
#422=DIRECTION('',(0.,0.,1.));
#423=DIRECTION('',(1.,0.,0.));
#424=DIRECTION('',(0.,0.,-1.));
#425=DIRECTION('',(0.,-1.,0.));
#426=DIRECTION('',(0.,0.,-1.));
#427=DIRECTION('',(-1.,0.,0.));
#428=DIRECTION('',(0.,0.,-1.));
#429=DIRECTION('',(-1.,0.,0.));
#430=DIRECTION('',(0.,0.,1.));
#431=DIRECTION('',(0.,0.,1.));
#432=DIRECTION('',(1.,0.,0.));
#433=DIRECTION('',(0.,-1.,0.));
#434=DIRECTION('',(0.,0.,1.));
#435=DIRECTION('',(1.,0.,0.));
#436=DIRECTION('',(0.,0.,1.));
#437=DIRECTION('',(1.,0.,0.));
#438=DIRECTION('',(0.,1.,0.));
#439=DIRECTION('',(0.,0.,1.));
#440=DIRECTION('',(1.,0.,0.));
#441=DIRECTION('',(-1.,0.,0.));
#442=DIRECTION('',(0.,0.,1.));
#443=DIRECTION('',(1.,0.,0.));
#444=DIRECTION('',(0.,-1.,0.));
#445=DIRECTION('',(0.,0.,1.));
#446=DIRECTION('',(1.,0.,0.));
#447=DIRECTION('',(0.,0.,1.));
#448=DIRECTION('',(1.,0.,0.));
#449=DIRECTION('',(0.,1.,0.));
#450=DIRECTION('',(0.,0.,-1.));
#451=DIRECTION('',(-0.663176265270527,0.748463253060453,0.));
#452=DIRECTION('',(0.,0.,1.));
#453=DIRECTION('',(1.,0.,0.));
#454=DIRECTION('',(0.,-1.,0.));
#455=DIRECTION('',(0.,0.,1.));
#456=DIRECTION('',(1.,0.,0.));
#457=DIRECTION('',(0.,0.,1.));
#458=DIRECTION('',(1.,0.,0.));
#459=DIRECTION('',(0.,1.,0.));
#460=DIRECTION('',(0.,0.,1.));
#461=DIRECTION('',(1.,0.,0.));
#462=DIRECTION('',(1.,0.,0.));
#463=DIRECTION('',(0.,0.,1.));
#464=DIRECTION('',(1.,0.,0.));
#465=DIRECTION('',(0.,0.,1.));
#466=DIRECTION('',(1.,0.,0.));
#467=DIRECTION('',(0.,-1.,0.));
#468=DIRECTION('',(0.,0.,-1.));
#469=DIRECTION('',(-0.663176265270527,0.748463253060453,0.));
#470=DIRECTION('',(0.,1.,0.));
#471=DIRECTION('',(0.,0.,1.));
#472=DIRECTION('',(1.,0.,0.));
#473=DIRECTION('',(0.,0.,1.));
#474=DIRECTION('',(1.,0.,0.));
#475=DIRECTION('',(0.,0.,-1.));
#476=DIRECTION('',(0.,0.,1.));
#477=DIRECTION('',(1.,0.,0.));
#478=DIRECTION('',(0.,0.,1.));
#479=DIRECTION('',(1.,0.,0.));
#480=DIRECTION('',(0.,1.,0.));
#481=DIRECTION('',(0.,0.,1.));
#482=DIRECTION('',(0.,0.,-1.));
#483=DIRECTION('',(6.34413156928661E-17,-1.,0.));
#484=DIRECTION('',(0.,0.,-1.));
#485=DIRECTION('',(0.,0.,-1.));
#486=DIRECTION('',(0.,0.,1.));
#487=DIRECTION('',(0.,0.,1.));
#488=DIRECTION('',(1.,0.,0.));
#489=DIRECTION('',(0.,0.,-1.));
#490=DIRECTION('',(-0.663176265270506,0.748463253060472,0.));
#491=DIRECTION('',(1.,0.,0.));
#492=DIRECTION('',(0.,1.,0.));
#493=DIRECTION('',(-1.,0.,0.));
#494=DIRECTION('',(0.,0.,1.));
#495=DIRECTION('',(0.,0.,1.));
#496=DIRECTION('',(1.,0.,0.));
#497=DIRECTION('',(0.,0.,1.));
#498=DIRECTION('',(-1.,0.,0.));
#499=DIRECTION('',(0.,0.,1.));
#500=DIRECTION('',(0.,0.,1.));
#501=DIRECTION('',(0.,0.,-1.));
#502=DIRECTION('',(-1.,0.,0.));
#503=DIRECTION('',(0.,0.,-1.));
#504=DIRECTION('',(-1.,0.,0.));
#505=CARTESIAN_POINT('',(0.,0.,0.));
#506=CARTESIAN_POINT('',(-19.5,-32.,-50.000000000005));
#507=CARTESIAN_POINT('',(-19.5,-32.,49.9999999999951));
#508=CARTESIAN_POINT('',(-17.50000000001,-32.,50.0000000000052));
#509=CARTESIAN_POINT('',(-20.8854351687389,-33.4424178982602,50.0000000000052));
#510=CARTESIAN_POINT('',(-20.8854351687389,-33.4424178982602,-50.000000000005));
#511=CARTESIAN_POINT('',(-20.8854351687389,-33.4424178982602,-50.0000000000049));
#512=CARTESIAN_POINT('',(-19.5,-32.,-50.0000000000049));
#513=CARTESIAN_POINT('',(-17.50000000001,-32.,-50.0000000000049));
#514=CARTESIAN_POINT('',(-17.5,-32.,-50.000000000005));
#515=CARTESIAN_POINT('',(0.,-11.6979680819875,-50.000000000005));
#516=CARTESIAN_POINT('',(0.,-11.6979680819875,50.0000000000052));
#517=CARTESIAN_POINT('',(-19.8463587921847,-32.3606044745651,50.0000000000052));
#518=CARTESIAN_POINT('',(19.8463587921847,-32.3606044745651,50.0000000000052));
#519=CARTESIAN_POINT('',(-19.8463587921847,-32.3606044745651,-50.000000000005));
#520=CARTESIAN_POINT('',(-19.8463587921847,-32.3606044745651,-50.0000000000049));
#521=CARTESIAN_POINT('',(0.,-11.6979680819875,-50.0000000000049));
#522=CARTESIAN_POINT('',(19.8463587921847,-32.3606044745651,-50.0000000000049));
#523=CARTESIAN_POINT('',(19.8463587921847,-32.3606044745651,-50.000000000005));
#524=CARTESIAN_POINT('',(19.5,-32.,-50.000000000005));
#525=CARTESIAN_POINT('',(19.5,-32.,49.9999999999951));
#526=CARTESIAN_POINT('',(20.8854351687389,-33.4424178982602,50.0000000000052));
#527=CARTESIAN_POINT('',(17.50000000001,-32.,50.0000000000052));
#528=CARTESIAN_POINT('',(17.5,-32.,-50.000000000005));
#529=CARTESIAN_POINT('',(17.50000000001,-32.,-50.0000000000049));
#530=CARTESIAN_POINT('',(19.5,-32.,-50.0000000000049));
#531=CARTESIAN_POINT('',(20.8854351687389,-33.4424178982602,-50.0000000000049));
#532=CARTESIAN_POINT('',(20.8854351687389,-33.4424178982602,-50.000000000005));
#533=CARTESIAN_POINT('',(17.5,0.,-50.000000000005));
#534=CARTESIAN_POINT('',(17.50000000001,9.99894611553032E-12,-50.0000000000049));
#535=CARTESIAN_POINT('',(15.5,9.99894611553032E-12,-50.0000000000049));
#536=CARTESIAN_POINT('',(-15.5,9.99894611553032E-12,-50.0000000000049));
#537=CARTESIAN_POINT('',(15.5,0.,-50.000000000005));
#538=CARTESIAN_POINT('',(15.5,9.99894611553032E-12,50.0000000000052));
#539=CARTESIAN_POINT('',(17.50000000001,9.99894611553032E-12,50.0000000000052));
#540=CARTESIAN_POINT('',(-15.5,9.99894611553032E-12,50.0000000000052));
#541=CARTESIAN_POINT('',(-15.5,0.,-50.000000000005));
#542=CARTESIAN_POINT('',(-1.49186218934005E-15,-9.04438771798054,49.9999999999951));
#543=CARTESIAN_POINT('',(-19.00000000001,-4.84291400006525,50.0000000000052));
#544=CARTESIAN_POINT('',(-19.00000000001,-2.,50.0000000000052));
#545=CARTESIAN_POINT('',(-19.00000000001,-32.,50.0000000000052));
#546=CARTESIAN_POINT('',(-19.5,-32.,49.9999999999951));
#547=CARTESIAN_POINT('',(19.5,-32.,49.9999999999951));
#548=CARTESIAN_POINT('',(19.00000000001,-32.,50.0000000000052));
#549=CARTESIAN_POINT('',(19.00000000001,-21.0929140000853,50.0000000000052));
#550=CARTESIAN_POINT('',(19.00000000001,-2.,50.0000000000052));
#551=CARTESIAN_POINT('',(15.5,-2.,49.9999999999951));
#552=CARTESIAN_POINT('',(15.5,1.5,49.9999999999951));
#553=CARTESIAN_POINT('',(8.75000000001,1.50000000001,50.0000000000052));
#554=CARTESIAN_POINT('',(-15.5,1.5,50.0000000000052));
#555=CARTESIAN_POINT('',(-15.5,-2.,49.9999999999951));
#556=CARTESIAN_POINT('',(-17.50000000001,-0.641440282159962,50.0000000000052));
#557=CARTESIAN_POINT('',(-17.50000000001,-2.,50.0000000000052));
#558=CARTESIAN_POINT('',(-15.5,-2.,49.9999999999951));
#559=CARTESIAN_POINT('',(15.5,-2.,49.9999999999951));
#560=CARTESIAN_POINT('',(17.50000000001,-2.,50.0000000000052));
#561=CARTESIAN_POINT('',(17.50000000001,-33.14144028218,50.0000000000052));
#562=CARTESIAN_POINT('',(0.,-11.6979680819875,50.0000000000052));
#563=CARTESIAN_POINT('',(-1.49752167854993E-15,-9.04438771798054,-50.0000000000049));
#564=CARTESIAN_POINT('',(19.00000000001,-21.0929140000853,-50.0000000000049));
#565=CARTESIAN_POINT('',(19.00000000001,-2.,-50.0000000000049));
#566=CARTESIAN_POINT('',(19.00000000001,-32.,-50.0000000000049));
#567=CARTESIAN_POINT('',(19.5,-32.,-50.0000000000049));
#568=CARTESIAN_POINT('',(-19.5,-32.,-50.0000000000049));
#569=CARTESIAN_POINT('',(-19.00000000001,-32.,-50.0000000000049));
#570=CARTESIAN_POINT('',(-19.00000000001,-4.84291400006525,-50.0000000000049));
#571=CARTESIAN_POINT('',(-19.00000000001,-2.,-50.0000000000049));
#572=CARTESIAN_POINT('',(-15.5,-2.,-50.0000000000049));
#573=CARTESIAN_POINT('',(-15.5,1.5,-50.0000000000049));
#574=CARTESIAN_POINT('',(8.75000000001,1.50000000001,-50.0000000000049));
#575=CARTESIAN_POINT('',(15.5,1.5,-50.0000000000049));
#576=CARTESIAN_POINT('',(15.5,-2.,-50.0000000000049));
#577=CARTESIAN_POINT('',(-15.5,-2.,-50.0000000000049));
#578=CARTESIAN_POINT('',(-17.50000000001,-2.,-50.0000000000049));
#579=CARTESIAN_POINT('',(-17.50000000001,-0.641440282159962,-50.0000000000049));
#580=CARTESIAN_POINT('',(0.,-11.6979680819875,-50.0000000000049));
#581=CARTESIAN_POINT('',(17.50000000001,-33.14144028218,-50.0000000000049));
#582=CARTESIAN_POINT('',(17.50000000001,-2.,-50.0000000000049));
#583=CARTESIAN_POINT('',(15.5,-2.,-50.0000000000049));
#584=CARTESIAN_POINT('',(-15.5,-2.,-50.000000000005));
#585=CARTESIAN_POINT('',(-17.5,-2.,-50.000000000005));
#586=CARTESIAN_POINT('',(15.5,-2.,-50.000000000005));
#587=CARTESIAN_POINT('',(17.5,-2.,-50.000000000005));
#588=CARTESIAN_POINT('',(-19.,-0.641440282169961,-50.000000000005));
#589=CARTESIAN_POINT('',(-19.,-32.,49.9999999999951));
#590=CARTESIAN_POINT('',(-19.,-2.,-50.000000000005));
#591=CARTESIAN_POINT('',(17.5,1.5,-50.000000000005));
#592=CARTESIAN_POINT('',(15.5,1.5,-50.000000000005));
#593=CARTESIAN_POINT('',(-15.5,1.5,-50.000000000005));
#594=CARTESIAN_POINT('',(-15.5,-2.,-50.000000000005));
#595=CARTESIAN_POINT('',(0.,-11.6979680819875,-50.000000000005));
#596=CARTESIAN_POINT('',(-17.5,-0.641440282169961,-50.000000000005));
#597=CARTESIAN_POINT('',(17.5,-33.14144028217,-50.000000000005));
#598=CARTESIAN_POINT('',(15.5,-2.,-50.000000000005));
#599=CARTESIAN_POINT('',(19.,-2.,-50.000000000005));
#600=CARTESIAN_POINT('',(19.,-33.14144028217,-50.000000000005));
#601=CARTESIAN_POINT('',(19.,-32.,-50.0000000000049));
#602=CARTESIAN_POINT('',(19.5,-32.,-50.000000000005));
#603=CARTESIAN_POINT('',(-19.5,-32.,-50.000000000005));
#604=MECHANICAL_DESIGN_GEOMETRIC_PRESENTATION_REPRESENTATION('',(#349),
#605);
#605=(
GEOMETRIC_REPRESENTATION_CONTEXT(3)
GLOBAL_UNCERTAINTY_ASSIGNED_CONTEXT((#606))
GLOBAL_UNIT_ASSIGNED_CONTEXT((#609,#608,#607))
REPRESENTATION_CONTEXT('A000013','TOP_LEVEL_ASSEMBLY_PART')
);
#606=UNCERTAINTY_MEASURE_WITH_UNIT(LENGTH_MEASURE(0.005),#609,
'DISTANCE_ACCURACY_VALUE','Maximum Tolerance applied to model');
#607=(
NAMED_UNIT(*)
SI_UNIT($,.STERADIAN.)
SOLID_ANGLE_UNIT()
);
#608=(
NAMED_UNIT(*)
PLANE_ANGLE_UNIT()
SI_UNIT($,.RADIAN.)
);
#609=(
LENGTH_UNIT()
NAMED_UNIT(*)
SI_UNIT(.MILLI.,.METRE.)
);
#610=PRODUCT_DEFINITION_SHAPE('','',#611);
#611=PRODUCT_DEFINITION('','',#613,#612);
#612=DESIGN_CONTEXT('',#619,'design');
#613=PRODUCT_DEFINITION_FORMATION_WITH_SPECIFIED_SOURCE('','',#615,
 .NOT_KNOWN.);
#614=PRODUCT_RELATED_PRODUCT_CATEGORY('','',(#615));
#615=PRODUCT('A000013','A000013','A000013',(#617));
#616=PRODUCT_CATEGORY('','');
#617=MECHANICAL_CONTEXT('',#619,'mechanical');
#618=APPLICATION_PROTOCOL_DEFINITION('international standard',
'config_control_design',2010,#619);
#619=APPLICATION_CONTEXT(
'configuration controlled 3D designs of mechanical parts and assemblie
s');
ENDSEC;
END-ISO-10303-21;
