ISO-10303-21;
HEADER;
/* Generated by software containing ST-Developer
 * from STEP Tools, Inc. (www.steptools.com) 
 */
/* OPTION: using custom renumber hook */

FILE_DESCRIPTION(
/* description */ ('STEP AP214'),
/* implementation_level */ '2;1');

FILE_NAME(
/* name */ '6540d04f8694dd3f43dffa06',
/* time_stamp */ '2023-10-31T10:00:48Z',
/* author */ (''),
/* organization */ (''),
/* preprocessor_version */ 'ST-DEVELOPER v19.4',
/* originating_system */ '  ',
/* authorisation */ '  ');

FILE_SCHEMA (('AUTOMOTIVE_DESIGN {1 0 10303 214 3 1 1}'));
ENDSEC;

DATA;
#10=PROPERTY_DEFINITION_REPRESENTATION(#14,#12);
#11=PROPERTY_DEFINITION_REPRESENTATION(#15,#13);
#12=REPRESENTATION('',(#16),#202);
#13=REPRESENTATION('',(#17),#202);
#14=PROPERTY_DEFINITION('pmi validation property','',#207);
#15=PROPERTY_DEFINITION('pmi validation property','',#207);
#16=VALUE_REPRESENTATION_ITEM('number of annotations',COUNT_MEASURE(0.));
#17=VALUE_REPRESENTATION_ITEM('number of views',COUNT_MEASURE(0.));
#18=SHAPE_REPRESENTATION_RELATIONSHIP('','',#122,#19);
#19=ADVANCED_BREP_SHAPE_REPRESENTATION('',(#120),#202);
#20=CONICAL_SURFACE('',#138,0.02155,0.785398163397448);
#21=ELLIPSE('',#137,0.037570730418679,0.02415);
#22=LINE('',#196,#23);
#23=VECTOR('',#166,1.);
#24=PLANE('',#127);
#25=PLANE('',#132);
#26=PLANE('',#134);
#27=PLANE('',#139);
#28=ORIENTED_EDGE('',*,*,#46,.T.);
#29=ORIENTED_EDGE('',*,*,#47,.T.);
#30=ORIENTED_EDGE('',*,*,#48,.T.);
#31=ORIENTED_EDGE('',*,*,#49,.F.);
#32=ORIENTED_EDGE('',*,*,#50,.T.);
#33=ORIENTED_EDGE('',*,*,#49,.T.);
#34=ORIENTED_EDGE('',*,*,#51,.T.);
#35=ORIENTED_EDGE('',*,*,#47,.F.);
#36=ORIENTED_EDGE('',*,*,#46,.F.);
#37=ORIENTED_EDGE('',*,*,#52,.F.);
#38=ORIENTED_EDGE('',*,*,#53,.T.);
#39=ORIENTED_EDGE('',*,*,#48,.F.);
#40=ORIENTED_EDGE('',*,*,#54,.T.);
#41=ORIENTED_EDGE('',*,*,#52,.T.);
#42=ORIENTED_EDGE('',*,*,#50,.F.);
#43=ORIENTED_EDGE('',*,*,#51,.F.);
#44=ORIENTED_EDGE('',*,*,#53,.F.);
#45=ORIENTED_EDGE('',*,*,#54,.F.);
#46=EDGE_CURVE('',#55,#55,#63,.F.);
#47=EDGE_CURVE('',#56,#56,#64,.T.);
#48=EDGE_CURVE('',#57,#57,#65,.T.);
#49=EDGE_CURVE('',#58,#58,#66,.T.);
#50=EDGE_CURVE('',#59,#59,#67,.T.);
#51=EDGE_CURVE('',#60,#60,#68,.F.);
#52=EDGE_CURVE('',#61,#62,#69,.T.);
#53=EDGE_CURVE('',#61,#62,#22,.T.);
#54=EDGE_CURVE('',#62,#61,#21,.T.);
#55=VERTEX_POINT('',#178);
#56=VERTEX_POINT('',#180);
#57=VERTEX_POINT('',#183);
#58=VERTEX_POINT('',#185);
#59=VERTEX_POINT('',#188);
#60=VERTEX_POINT('',#191);
#61=VERTEX_POINT('',#194);
#62=VERTEX_POINT('',#195);
#63=CIRCLE('',#125,0.01715);
#64=CIRCLE('',#126,0.01715);
#65=CIRCLE('',#128,0.02415);
#66=CIRCLE('',#129,0.02205);
#67=CIRCLE('',#131,0.02205);
#68=CIRCLE('',#133,0.02155);
#69=CIRCLE('',#135,0.02415);
#70=EDGE_LOOP('',(#28));
#71=EDGE_LOOP('',(#29));
#72=EDGE_LOOP('',(#30));
#73=EDGE_LOOP('',(#31));
#74=EDGE_LOOP('',(#32));
#75=EDGE_LOOP('',(#33));
#76=EDGE_LOOP('',(#34));
#77=EDGE_LOOP('',(#35));
#78=EDGE_LOOP('',(#36));
#79=EDGE_LOOP('',(#37,#38));
#80=EDGE_LOOP('',(#39));
#81=EDGE_LOOP('',(#40,#41));
#82=EDGE_LOOP('',(#42));
#83=EDGE_LOOP('',(#43));
#84=EDGE_LOOP('',(#44,#45));
#85=FACE_BOUND('',#70,.T.);
#86=FACE_BOUND('',#71,.T.);
#87=FACE_BOUND('',#72,.T.);
#88=FACE_BOUND('',#73,.T.);
#89=FACE_BOUND('',#74,.T.);
#90=FACE_BOUND('',#75,.T.);
#91=FACE_BOUND('',#76,.T.);
#92=FACE_BOUND('',#77,.T.);
#93=FACE_BOUND('',#78,.T.);
#94=FACE_BOUND('',#79,.T.);
#95=FACE_BOUND('',#80,.T.);
#96=FACE_BOUND('',#81,.T.);
#97=FACE_BOUND('',#82,.T.);
#98=FACE_BOUND('',#83,.T.);
#99=FACE_BOUND('',#84,.T.);
#100=CYLINDRICAL_SURFACE('',#124,0.01715);
#101=CYLINDRICAL_SURFACE('',#130,0.02205);
#102=CYLINDRICAL_SURFACE('',#136,0.02415);
#103=ADVANCED_FACE('',(#85,#86),#100,.F.);
#104=ADVANCED_FACE('',(#87,#88),#24,.T.);
#105=ADVANCED_FACE('',(#89,#90),#101,.T.);
#106=ADVANCED_FACE('',(#91,#92),#25,.F.);
#107=ADVANCED_FACE('',(#93,#94),#26,.F.);
#108=ADVANCED_FACE('',(#95,#96),#102,.T.);
#109=ADVANCED_FACE('',(#97,#98),#20,.T.);
#110=ADVANCED_FACE('',(#99),#27,.F.);
#111=CLOSED_SHELL('',(#103,#104,#105,#106,#107,#108,#109,#110));
#112=STYLED_ITEM('',(#113),#120);
#113=PRESENTATION_STYLE_ASSIGNMENT((#114));
#114=SURFACE_STYLE_USAGE(.BOTH.,#115);
#115=SURFACE_SIDE_STYLE('',(#116));
#116=SURFACE_STYLE_FILL_AREA(#117);
#117=FILL_AREA_STYLE('',(#118));
#118=FILL_AREA_STYLE_COLOUR('',#119);
#119=COLOUR_RGB('',0.647058823529412,0.647058823529412,0.647058823529412);
#120=MANIFOLD_SOLID_BREP('A000984 - Nutrohr - Ring - 48,3',#111);
#121=SHAPE_DEFINITION_REPRESENTATION(#207,#122);
#122=SHAPE_REPRESENTATION('A000984 - Nutrohr - Ring - 48,3',(#123),#202);
#123=AXIS2_PLACEMENT_3D('',#175,#140,#141);
#124=AXIS2_PLACEMENT_3D('',#176,#142,#143);
#125=AXIS2_PLACEMENT_3D('',#177,#144,#145);
#126=AXIS2_PLACEMENT_3D('',#179,#146,#147);
#127=AXIS2_PLACEMENT_3D('',#181,#148,#149);
#128=AXIS2_PLACEMENT_3D('',#182,#150,#151);
#129=AXIS2_PLACEMENT_3D('',#184,#152,#153);
#130=AXIS2_PLACEMENT_3D('',#186,#154,#155);
#131=AXIS2_PLACEMENT_3D('',#187,#156,#157);
#132=AXIS2_PLACEMENT_3D('',#189,#158,#159);
#133=AXIS2_PLACEMENT_3D('',#190,#160,#161);
#134=AXIS2_PLACEMENT_3D('',#192,#162,#163);
#135=AXIS2_PLACEMENT_3D('',#193,#164,#165);
#136=AXIS2_PLACEMENT_3D('',#197,#167,#168);
#137=AXIS2_PLACEMENT_3D('',#198,#169,#170);
#138=AXIS2_PLACEMENT_3D('',#199,#171,#172);
#139=AXIS2_PLACEMENT_3D('',#200,#173,#174);
#140=DIRECTION('',(0.,0.,1.));
#141=DIRECTION('',(1.,0.,0.));
#142=DIRECTION('',(-1.,0.,0.));
#143=DIRECTION('',(0.,0.,1.));
#144=DIRECTION('',(-1.,0.,0.));
#145=DIRECTION('',(0.,0.,1.));
#146=DIRECTION('',(-1.,0.,0.));
#147=DIRECTION('',(0.,0.,1.));
#148=DIRECTION('',(-1.,0.,0.));
#149=DIRECTION('',(0.,0.,1.));
#150=DIRECTION('',(-1.,0.,0.));
#151=DIRECTION('',(0.,0.,1.));
#152=DIRECTION('',(-1.,0.,0.));
#153=DIRECTION('',(0.,0.,1.));
#154=DIRECTION('',(-1.,0.,0.));
#155=DIRECTION('',(0.,0.,1.));
#156=DIRECTION('',(1.,0.,0.));
#157=DIRECTION('',(0.,0.,-1.));
#158=DIRECTION('',(1.,0.,0.));
#159=DIRECTION('',(0.,0.,-1.));
#160=DIRECTION('',(1.,0.,0.));
#161=DIRECTION('',(0.,0.,-1.));
#162=DIRECTION('',(-1.,0.,0.));
#163=DIRECTION('',(0.,0.,1.));
#164=DIRECTION('',(-1.,0.,0.));
#165=DIRECTION('',(0.,0.,1.));
#166=DIRECTION('',(0.,-1.,0.));
#167=DIRECTION('',(-1.,0.,0.));
#168=DIRECTION('',(0.,0.,1.));
#169=DIRECTION('',(-0.642787609686539,0.,-0.766044443118978));
#170=DIRECTION('',(-0.766044443118978,0.,0.642787609686539));
#171=DIRECTION('',(1.,0.,0.));
#172=DIRECTION('',(0.,0.,-1.));
#173=DIRECTION('',(-0.642787609686539,0.,-0.766044443118978));
#174=DIRECTION('',(-0.766044443118978,0.,0.642787609686539));
#175=CARTESIAN_POINT('',(0.,0.,0.));
#176=CARTESIAN_POINT('',(-0.0519589279621844,0.,0.));
#177=CARTESIAN_POINT('',(-6.93889390390723E-18,0.,0.));
#178=CARTESIAN_POINT('',(-6.93889390390723E-18,0.,0.01715));
#179=CARTESIAN_POINT('',(-0.01,0.,0.));
#180=CARTESIAN_POINT('',(-0.01,0.,0.01715));
#181=CARTESIAN_POINT('',(-0.008,0.,0.0231));
#182=CARTESIAN_POINT('',(-0.008,0.,0.));
#183=CARTESIAN_POINT('',(-0.008,0.,0.02415));
#184=CARTESIAN_POINT('',(-0.008,0.,0.));
#185=CARTESIAN_POINT('',(-0.008,0.,0.02205));
#186=CARTESIAN_POINT('',(-0.0519589279621844,0.,0.));
#187=CARTESIAN_POINT('',(-0.0095,0.,0.));
#188=CARTESIAN_POINT('',(-0.0095,0.,-0.02205));
#189=CARTESIAN_POINT('',(-0.01,0.,0.0196));
#190=CARTESIAN_POINT('',(-0.01,0.,0.));
#191=CARTESIAN_POINT('',(-0.01,0.,-0.02155));
#192=CARTESIAN_POINT('',(-6.37339067443178E-18,0.,0.0234));
#193=CARTESIAN_POINT('',(-6.93889390390723E-18,0.,0.));
#194=CARTESIAN_POINT('',(-6.93889390390723E-18,0.0147588582972284,0.0191154022129363));
#195=CARTESIAN_POINT('',(-6.93889390390723E-18,-0.0147588582972284,0.0191154022129363));
#196=CARTESIAN_POINT('',(-6.37339067443178E-18,0.,0.0191154022129363));
#197=CARTESIAN_POINT('',(-0.0519589279621844,0.,0.));
#198=CARTESIAN_POINT('',(0.0227808492611502,0.,0.));
#199=CARTESIAN_POINT('',(-0.01,0.,0.));
#200=CARTESIAN_POINT('',(-0.002,0.0693625774575106,0.0207936014752909));
#201=MECHANICAL_DESIGN_GEOMETRIC_PRESENTATION_REPRESENTATION('',(#112),
#202);
#202=(
GEOMETRIC_REPRESENTATION_CONTEXT(3)
GLOBAL_UNCERTAINTY_ASSIGNED_CONTEXT((#203))
GLOBAL_UNIT_ASSIGNED_CONTEXT((#206,#205,#204))
REPRESENTATION_CONTEXT('A000984 - Nutrohr - Ring - 48,3',
'TOP_LEVEL_ASSEMBLY_PART')
);
#203=UNCERTAINTY_MEASURE_WITH_UNIT(LENGTH_MEASURE(5.E-6),#206,
'DISTANCE_ACCURACY_VALUE','Maximum Tolerance applied to model');
#204=(
NAMED_UNIT(*)
SI_UNIT($,.STERADIAN.)
SOLID_ANGLE_UNIT()
);
#205=(
NAMED_UNIT(*)
PLANE_ANGLE_UNIT()
SI_UNIT($,.RADIAN.)
);
#206=(
LENGTH_UNIT()
NAMED_UNIT(*)
SI_UNIT($,.METRE.)
);
#207=PRODUCT_DEFINITION_SHAPE('','',#208);
#208=PRODUCT_DEFINITION('','',#210,#209);
#209=PRODUCT_DEFINITION_CONTEXT('',#216,'design');
#210=PRODUCT_DEFINITION_FORMATION_WITH_SPECIFIED_SOURCE('','',#212,
 .NOT_KNOWN.);
#211=PRODUCT_RELATED_PRODUCT_CATEGORY('','',(#212));
#212=PRODUCT('A000984 - Nutrohr - Ring - 48,3',
'A000984 - Nutrohr - Ring - 48,3','A000984 - Nutrohr - Ring - 48,3',(#214));
#213=PRODUCT_CATEGORY('','');
#214=PRODUCT_CONTEXT('',#216,'mechanical');
#215=APPLICATION_PROTOCOL_DEFINITION('international standard',
'automotive_design',2010,#216);
#216=APPLICATION_CONTEXT(
'core data for automotive mechanical design processes');
ENDSEC;
END-ISO-10303-21;
